Miligram 3 - Vrati mi se nesreco - Akordi PDF Ispis E-mail

Akordi -  Miligram 3 - Vrati mi se nesreco

 

 

 

Fm   C#   G#            D#
Pola ulice prica da sam suplja prica
I da ne mogu bez nje
Na prvi utisak ova ce mi doci glave
I bas to desilo se

         Fm          C#     G#
A ne bih ti se javio ni kad bi me nazvala
Ma da si mi iz oka ispala
Ostacu cvrst kao stena, to sam sebi obeco
       Fm   C#  G#      D#
I zato vrati mi se nesreco

Refren
    Fm         D#         Fm       D#
Jer ne mogu da zivim , ne mogu da umrem
        C#      D#         Fm
Sve sto slazem uvek mi se desi obrazno
Karakter mi je nula al cu se zakunem
Da te necu, zato mi se vrati nesreco


e-----------------------------------------------
h--13h14-13-------------------------------------
g-----------15-15br--13-15-15b------------------ 2x
d-----------------------------------------------
a-----------------------------------------------
e-----------------------------------------------

e-----------------------------------------------
h-----------------------------------------------
g-13-15-13-12-13 12~----------------------------
d-x-------------------13-13h15-15~--------------
a-x---------------------------------------------
e-----------------------------------------------


Prelaz: Fm C# G# D#


Molio sam svoga Boga ,
Gde god prodje tvoja noga
Da udari brigu na veselje
Sad ko lud na mesec lajem
Sad se kajem sto se kajem
Da li mogu da promenim zelje

A ne bih ti se javio ni kad bi me nazvala
Ma da si mi iz oka ispala
Ostacu cvrst kao stena, to sam sebi obeco
I zato vrati mi se nesreco

Refren
Jer ne mogu da zivim , ne mogu da umrem
Sve sto slazem uvek mi se desi obrazno
Karakter mi je nula al cu se zakunem
Da te necu, zato mi se vrati nesreco

Akordi Note Miligram 3 - Vrati mi se nesreco

 

Add comment

Podržite nas